Guitar Tabs For Sweet Home Alabama

SWEET HOME ALABAMA
As recorded by Lynyrd Skynyrd

Q=100 4/4
  Gtr II
|---------|-----------------------|---------------------------|
|---------|-----------------------|---------------------------|
|---------|-----------------------|---------------------------|
|---------|-----------------------|-------------------7-------|
|---------|-----------------------|---------------------9s7s9-|
|---------|-----------------------|---------------------------|
|
| Gtr I
|---------|-----------------------|---------------------------|
|---------|-----3-----------3-----|---------------------------|
|---------|-------2-----------0---|-------0-0-------------2p0-|
|---------|-0-0-----0-----------0-|---------------0-2p0-------|
|---------|-----------3-0-3-------|-----------0h2-------2-----|
|---------|-----------------------|-3-0-3---------------------|

                ~~~~~~~~~~~~~
|---------------------------|
|---------------------------|
|-7-------(7)-9-7-----------|
|---------------------------|
|---------------------------|
|---------------------------|
|
|---------------------------|
|-----3---------------3-----|
|-------2---------------0---|
|-0-0---------0-----------0-|
|---------------3-0-3-------|
|---------------------------|

 ~~~~~
|-----------------------------|---0-(0)---------------0---|
|-----------------------------|---------3-------3-(3)---3-|
|-(7)-------------------------|---------------------------|
|-----------------------------|---------------------------|
|-----------------------------|---------------------------|
|-----------------------------|---------------------------|
|
|-----------------------------|---------------------------|
|-----------------------------|------3-------------3----3-|
|---------0-0-2p0-0-4p0---5b7-|------2-------------0----0-|
|-----------------------0-----|-0-0-------x-------------2-|
|-----------------------------|-------------3-0-3---------|
|--3--x-3---------------------|---------------------------|

|-----3-(3)-----------3-(3)---------|
|-----------3---3s5-----------5s3---|
|-----------------------------------|
|-----------------------------------|
|-----------------------------------|
|-----------------------------------|
|
|-----------------------------------|
|--------3----3---------------------|
|--------0----0-----------------2p0-|
|--------0----0-----0-2p=0----------|
|---------------0h2---------2-------|
|-3-x-3-----3-----------------------|

|---0-(0)---------------0---|-----3-(3)---3-----------3-|
|---------3-------3-(3)---3-|-----------3-------3-(3)---|
|---------------------------|---------------------------|
|---------------------------|---------------------------|
|---------------------------|---------------------------|
|---------------------------|---------------------------|
|
|---------------------------|---------------------------|
|------3-------------3----3-|--------3------------------|
|------2-------------0----0-|--------0----------0-(0)---|
|-0-0-------x-------------2-|--------0--------0---------|
|-------------3-0-3---------|-------------1s2-----------|
|---------------------------|-3-x-3---------------------|

|---0-(0)-------------0---|---3-(3)---------3-(3)---------|
|---------3-----3-(3)---3-|---------3-3s5-----------5s3---|
|-------------------------|-------------------------------|
|-------------------------|-------------------------------|
|-------------------------|-------------------------------|
|-------------------------|-------------------------------|
|
|-------------------------|-------------------------------|
|------3----3------3----3-|------3------------------------|
|------2----2------0----0-|------0----------0-(0)-0-------|
|-0-0-------------------0-|------0--------0---------------|
|-------------3-3---------|-----------0h2-------------0h2-|
|-------------------------|-3-3---------------------------|

|---0-(0)-------------0---|---3-(3)---3---------3---|
|---------3-----3-(3)---3-|---------3-----3-(3)-----|
|-------------------------|-------------------------|
|-------------------------|-------------------------|
|-------------------------|-------------------------|
|-------------------------|-------------------------|
|
|-------------------------|-------------------------|
|------3----3------3----3-|------3------------------|
|------2----2------0----0-|------0-----------0------|
|-0-0-------------------2-|------0-----------0------|
|-------------3-3---------|-------------------------|
|-------------------------|-3-3-------3-3-----------|

|---0-(0)-------------0---|---3-(3)---------3-(3)---------|
|---------3-----3-(3)---3-|---------3-3s5-----------5s3---|
|-------------------------|-------------------------------|
|-------------------------|-------------------------------|
|-------------------------|-------------------------------|
|-------------------------|-------------------------------|
|
|-------------------------|-------------------------------|
|------3----3------3----3-|------3------------------------|
|------2----2------0----0-|------0----------0-(0)-0-------|
|-0-0-------------------0-|------0--------0---------------|
|-------------3-3---------|-----------0h2-------------0h2-|
|-------------------------|-3-3---------------------------|

|---0-(0)-------------0---|---3-(3)-----3-----------3-|
|---------3-----3-(3)---3-|---------3-------3-(3)-----|
|-------------------------|---------------------------|
|-------------------------|---------------------------|
|-------------------------|---------------------------|
|-------------------------|---------------------------|
|
|-------------------------|---------------------------|
|------3----3------3----3-|------3----3---------------|
|------2----2---0--0----0-|------0----0--------0--0-0-|
|-0-0-------------------2-|------0----0--------0--0-0-|
|-------------3-----------|---------------------------|
|-------------------------|-3-3---------3-3-----------|

|----------------------------|
|----------------------------|
|-------7-(7)-7-------5-5----|
|-------7-(7)-7-------5-5----|
|-7-8-9---------9s5-7-----7\-|
|----------------------------|
|
|----------------------------|
|----------------------------|
|-------7-(7)-7-------5-5----|
|-------7-(7)-7-------5-5----|
|-7-8-9---------9s5-7-----7\-|
|----------------------------|

                 \0.5/      \0.5/   \0.5/
|-----------------------------------------|----------------------------|
|-----------------------------------------|----------------------------|
|-------0-(0)---12---------12------12-----|-------7-(7)-7-------5-5----|
|-----0---------12---------12------12-----|-------7-(7)-7-------5-5----|
|-1s2-------------------------------------|-7-8-9---------9s5h7-----7\-|
|-----------------------------------------|----------------------------|
|
|                ~~~~~~~~~~
|-----------------------------------------|----------------------------|
|-----------------------------------------|----------------------------|
|-------0-(0)-0---------------------------|-------7-(7)-7-------5-5----|
|-----0-----------------------------------|-------7-(7)-7-------5-5----|
|-1s2-------------------------------------|-7-8-9---------9s5h7-----7\-|
|----------------3-----(3)----------------|----------------------------|

               ~~~~~~~
|----------------------------|---0-(0)-------------0---|
|-------------12-(12)--------|---------3-----3-(3)---3-|
|-------0-(0)-12-(12)--------|-------------------------|
|-----0-------12-(12)--------|-------------------------|
|-1s2------------------------|-------------------------|
|----------------------------|-------------------------|
|
|              ~~~~~~~
|----------------------------|-------------------------|
|----------------------------|------3----3------3----3-|
|-------0--0-----------------|------2----2------0----0-|
|-----0--------------------0-|-0-0-------------------0-|
|-1s2------------------0h2---|-------------3-3---------|
|--------------3--(3)--------|-------------------------|

|---3-(3)---------3-(3)----------|
|---------3-3s5-----------5s3----|
|--------------------------------|
|--------------------------------|
|--------------------------------|
|--------------------------------|
|
|--------------------------------|
|------3-------------------------|
|------0----------0-(0)-0--------|
|------0--------0----------------|
|-----------0h2-------------0h2--|
|-3-3----------------------------|

|---0-(0)-------------0---|---3-(3)---3---------3-|
|---------3-----3-(3)---3-|---------3-----3-(3)---|
|-------------------------|-----------------------|
|-------------------------|-----------------------|
|-------------------------|-----------------------|
|-------------------------|-----------------------|
|
|-------------------------|-----------------------|
|------3----3------3----3-|------3----------------|
|------2----2------0----0-|------0-----------0----|
|-0-0-------------------2-|------0-----------0----|
|-------------3-3---------|-----------------------|
|-------------------------|-3-3-------3-3---------|

|---0-(0)-------------0---|---3-(3)---------3-(3)-----------|
|---------3-----3-(3)---3-|---------3-3s5-----------5s3-----|
|-------------------------|---------------------------------|
|-------------------------|---------------------------------|
|-------------------------|---------------------------------|
|-------------------------|---------------------------------|
|
|-------------------------|---------------------------------|
|------3----3------3----3-|------3--------------------------|
|------2----2------0----0-|------0----------0-(0)-0---------|
|-0-0-------------------0-|------0--------0-----------------|
|-------------3-3---------|-----------0h2-------------0h2---|
|-------------------------|-3-3-----------------------------|

|---0-(0)-------------0---|---3-(3)-----------------------|-------------------|
|---------3-----3-(3)---3-|---------3---------------------|-------------------|
|-------------------------|---------------------0---------|-------------------|
|-------------------------|-------------------0---2p0-----|-7-7-9-7-5-5-7-5-5-|
|-------------------------|---------------0h2---------0h2-|-5-5-5-5-3-3-3-3-3-|
|-------------------------|-------------------------------|-------------------|
|
|-------------------------|-------------------------------|-------------------|
|------3----3------3----3-|-------------------------------|-------------------|
|------2----2---0--0----0-|------0----0-0-------0---------|-------------------|
|-0-0-------------------2-|------0----0-0-----0---2p0-----|---7-9-7---5-7-5-5-|
|-------------3-----------|---------------0h2---------0h2-|-5-5-5-5-3-3-3-3-3-|
|-------------------------|-3-3-------3-3-----------------|-------------------|

|---------------------------|-------------------|
|---------------------3-----|-------------------|
|---------------------5-----|-------------------|
|---------------------5-----|-7-7-9-7-5-5-7-5-5-|
|-5-5-x-x-7-x---5---x-3-----|-5-5-5-5-3-3-3-3-3-|
|-3-3-x-x-3-x---3---x-------|-------------------|
|
|---------------------------|-------------------|
|---------------------------|-------------------|
|---------------------------|-------------------|
|---------------0-2p0-------|---7-9-7---5-7-5-5-|
|-5-5-x-5-7-0h2-------3b3.5-|-5-5-5-5-3-3-3-3-3-|
|-3-3-x---3-----------------|-------------------|

|------------------------------------|
|------------------------------------|
|------------------------------------|
|---------------------5-------5/-----|
|-x---5---x-5-5-------3-------3/-----|
|-x---3---x-3-3----------------------|
|
|------------------------------------|
|------------------------------------|
|-----0-----0-----0-----0-----0------|
|-0h2---0h2---0h2---0h2---0h2--------|
|--------------------------------3/--|
|------------------------------------|

|-------------------|-----------------------|--------------------|
|-------------------|---------------------3-|--------------------|
|-------------------|---------------------5-|--------------------|
|-7-7-9-7-5-5-7-5-5-|-------------------x-5-|-7-7-9-7-5-5-7-5-5--|
|-5-5-5-5-3-3-3-3-3-|-5-5-x-x-7-x---5---x-3-|-5-5-5-5-3-3-3-3-3--|
|-------------------|-3-3-x-x-3-x---3-------|--------------------|
|
|-------------------|-----------------------|--------------------|
|-------------------|-----------------------|--------------------|
|-------------------|-----------------------|--------------------|
|---7-9-7---5-7-5-5-|-------0-------0-2p0---|---7-9-7---5-7-5-5--|
|-5-5-5-5-3-3-3-3-3-|-5-5-x---7-0h2-------3-|-5-5-5-5-3-3-3-3-3--|
|-------------------|-3-3-x---3-------------|--------------------|

                          ~~~~~~~            ~~~~~~~~~
|-----------15b17r(15)-x-15-(15)-|-14--------------------8--------------|
|--------------------------------|----15----15---(15)-10---11-10-8-10---|
|--------------------------------|-------14---------------------------9-|
|--------------------------------|--------------------------------------|
|-5-5-x-5-7----------------------|--------------------------------------|
|-3-3-x---3----------------------|--------------------------------------|
|
|------------1---------0---------|--------------------------------------|
|------------1---------1---------|-----------3-3---------------3------3-|
|------------2---------0---------|-----------2-2---------------0------0-|
|------------3---------2---------|--0-----0--0------------------------0-|
|-5-5-5-5-7--3---------3---------|-----------------3-----3--------------|
|-3-3-3-3-3----------------------|--------------------------------------|

  ~
|-----------------------------------|
|-8---8-10---10b12-----------8-10-8-|
|----------9-------------7h9--------|
|-----------------------------------|
|-----------------------------------|
|-----------------------------------|
|
|-----------------------------------|
|--------3---------3-------3--------|
|--------0---------0-------0--------|
|--------0---------0-------0--------|
|-----------------------------------|
|-3-3----------------3-3------------|

|-----------------------------------------|
|-10b12-------------8-10---8-10b12r(10)-8-|
|---------7-(7)-8-9------9----------------|
|-----------------------------------------|
|-----------------------------------------|
|-----------------------------------------|
|
|-----------------------------------------|
|------------3------3---------3---------3-|
|------------2------2---------0---------0-|
|--0----0----0--------------------------0-|
|----------------------3---3--------------|
|-----------------------------------------|

                                 \1/
|------------------------------------|---0-(0)-------------0----|
|-8-------8--------------------------|---------3-----3-(3)---3--|
|---9s7s9---7------------------------|--------------------------|
|-------------9b10r==(9)-5-0-(0)-0---|--------------------------|
|------------------------------------|--------------------------|
|------------------------------------|--------------------------|
|
|------------------------------------|--------------------------|
|---------3--------3----------3------|------3----3------3----3--|
|---------0--------0----------0------|------2----2------0----0--|
|---------0--------0----------0------|-0-0-------------------0--|
|------------------------------------|-------------3-3----------|
|-3---3---------------3----3---------|--------------------------|

|---3-(3)---------3-(3)---------|---0-(0)-------------0---|
|---------3-3s5-----------5s3---|---------3-----3-(3)---3-|
|-------------------------------|-------------------------|
|-------------------------------|-------------------------|
|-------------------------------|-------------------------|
|-------------------------------|-------------------------|
|
|-------------------------------|-------------------------|
|------3------------------------|------3----3------3----3-|
|------0----------0-(0)-0-------|------2----2------0----0-|
|------0--------0---------------|-0-0-------------------2-|
|-----------0h2-------------0h2-|-------------3-3---------|
|-3-3---------------------------|-------------------------|

|---3-(3)---3---------3-|---0-(0)-------------0-----|
|---------3-----3-(3)---|---------3-----3-(3)---3---|
|-----------------------|---------------------------|
|-----------------------|---------------------------|
|-----------------------|---------------------------|
|-----------------------|---------------------------|
|
|-----------------------|---------------------------|
|------3----------------|------3----3------3----3---|
|------0-----------0----|------2----2------0----0---|
|------0-----------0----|-0-0-------------------0---|
|-----------------------|-------------3-3-----------|
|-3-3-------3-3---------|---------------------------|

|---3-(3)---------3-(3)---------|
|---------3-3s5-----------5s3---|
|-------------------------------|
|-------------------------------|
|-------------------------------|
|-------------------------------|
|
|-------------------------------|
|------3------------------------|
|------0----------0-(0)-0-------|
|------0--------0---------------|
|-----------0h2-------------0h2-|
|-3-3---------------------------|

|---0-(0)-------------0---|---3-(3)-----------------------|
|---------3-----3-(3)---3-|---------3---------------------|
|-------------------------|---------------------0---------|
|-------------------------|-------------------0---2p0-----|
|-------------------------|---------------0h2---------0h2-|
|-------------------------|-------------------------------|
|
|-------------------------|-------------------------------|
|------3----3------3----3-|-------------------------------|
|------2----2---0--0----0-|------0----0-0-------0---------|
|-0-0-------------------2-|------0------------0---2p0-----|
|-------------3-----------|---------------0h2---------0h2-|
|-------------------------|-3-3-------3-3-----------------|

|---------------------|-----------------------|---------------------|
|---------------------|---------------------3-|---------------------|
|---------------------|---------------------5-|---------------------|
|-7-7-9-7---5-5-7-5-5-|---------------------5-|-7-7-9-7---5-5-7-5-5-|
|-5-5-5-5---3-3-3-3-3-|-5-5-x-x-7-x---5---x-3-|-5-5-5-5---3-3-3-3-3-|
|---------------------|-3-3-x-x-3-x---3---x---|---------------------|
|
|---------------------|-----------------------|---------------------|
|---------------------|-----------------------|---------------------|
|---------------------|-----------------------|---------------------|
|---7-9---7---5-7-5-7-|---------------0-2p0---|---7-9---7---5-7-5-7-|
|-5-5-5---5-3-3-3-3-3-|-5-5-x-5-7-0h2-------3-|-5-5-5---5-3-3-3-3-3-|
|---------------------|-3-3-x---3-------------|---------------------|

|-----------------------------------|
|-----------------------------------|
|-----------------------------------|
|---------------------5-------5/----|
|-x---5---x-5-5-------3-------3/----|
|-x---3---x-3-3---------------------|
|
|-----------------------------------|
|-----------------------------------|
|-----0-----0-----0-----0-----0-----|
|-0h2---0h2---0h2---0h2---0h2-------|
|--------------------------------3/-|
|-----------------------------------|

|---------------------|-----------------------|
|---------------------|---------------------3-|
|---------------------|---------------------5-|
|-7-7-9-7---5-5-7-5-5-|-------------------x-5-|
|-5-5-5-5---3-3-3-3-3-|-5-5-x-x-7-x---5---x-3-|
|---------------------|-3-3-x-x-3-x---3-------|
|
|---------------------|-----------------------|
|---------------------|-----------------------|
|---------------------|-----------------------|
|---7-9---7---5-7-5-7-|---------------0-2p0---|
|-5-5-5---5-3-3-3-3-3-|-5-5-x-5-7-0h2-------3-|
|---------------------|-3-3-x---3-------------|

|---------------------|-----------1-------0-----|
|---------------------|-----------1-------1-----|
|---------------------|-----------2-------0-----|
|-7-7-9-7---5-5-7-5-5-|-----------3-------2-----|
|-5-5-5-5---3-3-3-3-3-|-5-5-5-5-7-3-------3-----|
|---------------------|-3-3-3-3-3---------------|
|
|---------------------|-------------------------|
|---------------------|-------------------------|
|---------------------|-------------------------|
|---7-9---7---5-7-5-7-|-----------------------0-|
|-5-5-5---5-3-3-3-3-3-|-5-5-x-x-7-x-5-5-5-x-x---|
|---------------------|-3-3-x-x-3-x-3-3-3-x-x---|

|---------------------------------------|
|---------------------------------------|
|-----0-2s4-2-2-3b5---2b3---2b3-2-2b3r==|
|-0h2-----------------------------------|
|---------------------------------------|
|---------------------------------------|
|
|---------------------------------------|
|---------------------------------------|
|---------------------------------------|
|-7---7---9-7---7---5-----5-----7-5-----|
|-5---5---5-5---5---3-----3-----5-3-----|
|---------------------------------------|

                      \1/
|--------------------------------------------------|
|--------------------------------------------------|
|-(2)-2b3r==(2)-0---0-0---(0)-(0)-(0)---(0)---x-7/-|
|-----------------2--------------------------------|
|--------------------------------------------------|
|--------------------------------------------------|
|
|--------------------------------------------------|
|--------------------------------------------------|
|--------------------------------------------------|
|--------------------------------------------------|
|--5------5-----x-5-7------x---5---5--5--7--5------|
|--3------3-----x-3-3------x---3---3--3--3--3------|

|-----------------------------------------|-------------------------------|
|---8---8h10b13.5====(10)r-10b12-8---8----|-------------------------------|
|-9---9----------------------------9---9\-|-7-7---7-7-7-7-(7)---7---9-7-7-|
|-----------------------------------------|-----------------------9-------|
|-----------------------------------------|-------------------------------|
|-----------------------------------------|-------------------------------|
|
|-----------------------------------------|-------------------------------|
|-----------------------------------------|-------------------------------|
|-----------------------------------------|-------------------------------|
|-7-7---9--7-------7---5----5----7-5------|-------------------------------|
|-5-5---5--5-------5---3----3----5-3------|-5---5-x-5-7----x--5-5-5-7-5---|
|-----------------------------------------|-3---3-x-3-3----x--3-3-3-3-3---|

|------------------------------------------------------------|
|------------------------------------------------------------|
|------12----12-14p12----12-17p12----12-17p12----12-16p12----|
|-9s14----14----------14----------14----------14----------14-|
|------------------------------------------------------------|
|------------------------------------------------------------|
|
|------------------------------------------------------------|
|------------------------------------------------------------|
|------------------------------------------------------------|
|-7-----7-----9--7--------7--5--------5--------7--5----------|
|-5-----5-----5--5--------5--3--------3--------5--3----------|
|------------------------------------------------------------|

|----------------------------------------------------------------|
|----------------------------------------------------------------|
|-12-16p12----12-16p12----12-16p12----12-16p12----12-16p12----12-|
|----------14----------14----------14----------14----------14----|
|----------------------------------------------------------------|
|----------------------------------------------------------------|
|
|----------------------------------------------------------------|
|----------------------------------------------------------------|
|----------------------------------------------------------------|
|----------------------------------------------------------------|
|--5--------5-----x-----5--7--------x--5--5-----5--7--5----------|
|--3--------3-----x-----3--3--------x--3--3-----3--3--3----------|

|----------------------------------------------------------------|
|----------------------------------------------------------------|
|-14p12----12-14p12----12-17p12----12-17p12----12-17p12----12----|
|-------14----------14----------14----------14----------14----14-|
|----------------------------------------------------------------|
|----------------------------------------------------------------|
|
|----------------------------------------------------------------|
|----------------------------------------------------------------|
|----------------------------------------------------------------|
|--7--------7--------9--7--------7--5--------5-----7-----5-------|
|--5--------5--------5--5--------5--3--------3-----5-----3-------|
|----------------------------------------------------------------|

|-------------------------------------------12-----|
|-------------------------------12----12h15----15--|
|-------12----------12----12h14----14--------------|
|----------14s12s14----14--------------------------|
|-13s14--------------------------------------------|
|--------------------------------------------------|
|
|--------------------------------------------------|
|--------------------------------------------------|
|--------------------------------------------------|
|--------------------------------------------------|
|--5-----5-----x--5--7-----x--5--5--5--7--5--------|
|--3-----3-----x--3--3-----x--3--3--3--3--3--------|

         ~~~~~~~~~~~~~~~~~~~~~~~~~~~~~~~~~~~~~~~~~~~~~~~~~~~~~~~~~~
|-12h15-15-15---15-15-15-15-15-15---15-15-|-15-15-15-15---15-15-15-13b13.5-----12----12--------|
|-----------------------------------------|---------------------------------------15----15b17==|
|-----------------------------------------|----------------------------------------------------|
|-----------------------------------------|----------------------------------------------------|
|-----------------------------------------|----------------------------------------------------|
|-----------------------------------------|----------------------------------------------------|
|
|-----------------------------------------|----------------------------------------------------|
|-----------------------------------------|----------------------------------------------------|
|-----------------------------------------|----------------------------------------------------|
|--7-----7--9-7-----7--5--5-----7-5-------|----------------------------------------------------|
|--5-----5--5-5-----5--3--3-----5-3-------|--5--5-----x-5--7-----x--5------5-5--7--5-----------|
|-----------------------------------------|--3--3-----x-3--3-----x--3------3-3--3--3-----------|

|-------12-------12-------12-------12----------12--------|
|-(15)r----15b17----15b17----15b17----13----------15b17--|
|----------------------------------------14b16-----------|
|--------------------------------------------------------|
|--------------------------------------------------------|
|--------------------------------------------------------|
|
|--------------------------------------------------------|
|--------------------------------------------------------|
|--------------------------------------------------------|
|---7-------7-----9--7-----7--5-----5-----7-----5--------|
|---5-------5-----5--5-----5--3-----3-----5-----3--------|
|--------------------------------------------------------|

|-12-------------------------------------------------|
|----15p12----12-------------------------------------|
|----------15----15p14-12----------------------------|
|-------------------------14-12----------------------|
|-------------------------------14s12-10-10-10-12----|
|-------------------------------------------------12-|
|
|----------------------------------------------------|
|----------------------------------------------------|
|----------------------------------------------------|
|----------------------------------------------------|
|--5-----5-----x--5--7-----x--5-----5--5--7--5-------|
|--3-----3-----x--3--3-----x--3-----3--3--3--3-------|

|------------------------------------------------|
|------------------------------------------------|
|------------------------------------------------|
|---------------------------------------------12-|
|-10h12-12-10----10-10-(10)-10-12----10-12s14----|
|-------------12------------------12-------------|
|
|------------------------------------------------|
|------------------------------------------------|
|------------------------------------------------|
|--7-----7--9--7-----7---5------5-----7--5-------|
|--5-----5--5--5-----5---3------3-----5--3-------|
|------------------------------------------------|

|--------------------------------------------------------|
|-----------------------------------------------12-15p12-|
|----------------12----12-14----12-14b16==(14)r----------|
|-14----12-12h14----14-------14--------------------------|
|----14--------------------------------------------------|
|--------------------------------------------------------|
|
|--------------------------------------------------------|
|--------------------------------------------------------|
|--------------------------------------------------------|
|--------------------------------------------------------|
|--5-----5-----x--5--7-----x--5--5--5-------7----5-------|
|--3-----3-----x--3--3-----x--3--3--3-------3----3-------|

|-------------------15-17b19---17b19---17b19==(17)r-17-15----|
|-15p12-------15h17---------------------------------------17-|
|-------14s16------------------------------------------------|
|------------------------------------------------------------|
|------------------------------------------------------------|
|------------------------------------------------------------|
|
|------------------------------------------------------------|
|------------------------------------------------------------|
|------------------------------------------------------------|
|--7-----7-----9--7-----7----5-------5----------7----5-------|
|--5-----5-----5--5-----5----3-------3----------5----3-------|
|------------------------------------------------------------|

                                    ~~
|-15---------------------------------------|
|----17-15-12----12------------------------|
|-------------15----15p14-12-------12---12-|
|----------------------------14-12---------|
|------------------------------------------|
|------------------------------------------|
|
|------------------------------------------|
|------------------------------------------|
|------------------------------------------|
|------------------------------------------|
|--5-----5--x--5--7-----x--5--5--5--7-5----|
|--3-----3--x--3--3-----x--3--3--3--3-3----|

|----------------------------|---------------------------------------|
|----------------------------|---------------------------------------|
|----------------------------|------------------------14b16r(14)-12--|
|----------------------------|---------------------12----------------|
|----------------------------|---------------------------------------|
|----------------------------|---------------------------------------|
|
|                                            ~~~~~~
|----------------------------|---------------------------------------|
|----------------------------|---------------------------------------|
|-------7-(7)-7-------5-5----|-------0-(0)-0-------------------------|
|-------7-(7)-7-------5-5----|-----0---------------------------------|
|-7-8-9---------9s5-7-----7\-|-1s2-----------------------------------|
|----------------------------|---------------3-(3)-------------------|

|-------------------------------------|
|-------------------------------------|
|-14-10s11----------------------------|
|----------12-------------------------|
|-------------12------12p10---(10)----|
|-------------------------------------|
|
|-------------------------------------|
|-------------------------------------|
|-----------7-(7)-7---------5---5-----|
|-----------7-(7)-7---------5---5-----|
|--7--8--9----------9s=5--7--------7\-|
|-------------------------------------|

|------------------------------------------------|---0-(0)-------------0---|
|---------------------<12>-----------------------|---------3-----3-(3)---3-|
|--------------------------<5>-(<5>)-(<5>)-(<5>)-|-------------------------|
|-----------------<7>----------------------------|-------------------------|
|------------------------------------------------|-------------------------|
|------------------------------------------------|-------------------------|
|
|               ~~~~~~
|------------------------------------------------|-------------------------|
|------------------------------------------------|------3----3------3----3-|
|-------0-(0)-0----------------------------------|------2----2------0----0-|
|-----0------------------------------------------|-0-0-------------------0-|
|-1s2--------------------------------------------|-------------3-3---------|
|---------------3-(3)----------------------------|-------------------------|

|---3-(3)---------3-(3)---------|---0-(0)-------------0---|
|---------3-3s5-----------5s3---|---------3-----3-(3)---3-|
|-------------------------------|-------------------------|
|-------------------------------|-------------------------|
|-------------------------------|-------------------------|
|-------------------------------|-------------------------|
|
|-------------------------------|-------------------------|
|------3------------------------|------3----3------3----3-|
|------0----------0-(0)-0-------|------2----2------0----0-|
|------0--------0---------------|-0-0-------------------2-|
|-----------0h2-------------0h2-|-------------3-3---------|
|-3-3---------------------------|-------------------------|

|---3-(3)---3---------3-|---0-(0)-------------0-----|
|---------3-----3-(3)---|---------3-----3-(3)---3---|
|-----------------------|---------------------------|
|-----------------------|---------------------------|
|-----------------------|---------------------------|
|-----------------------|---------------------------|
|
|-----------------------|---------------------------|
|------3----------------|------3----3------3----3---|
|------0-----------0----|------2----2------0----0---|
|------0-----------0----|-0-0-------------------0---|
|-----------------------|-------------3-3-----------|
|-3-3-------3-3---------|---------------------------|

|---3-(3)---------3-(3)---------|
|---------3-3s5-----------5s3---|
|-------------------------------|
|-------------------------------|
|-------------------------------|
|-------------------------------|
|
|-------------------------------|
|------3------------------------|
|------0----------0-(0)-0-------|
|------0--------0---------------|
|-----------0h2-------------0h2-|
|-3-3---------------------------|

|---0-(0)-------------0---|---3-(3)-----------------------|
|---------3-----3-(3)---3-|---------3---------------------|
|-------------------------|---------------------0---------|
|-------------------------|-------------------0---2p0-----|
|-------------------------|---------------0h2---------0h2-|
|-------------------------|-------------------------------|
|
|-------------------------|-------------------------------|
|------3----3------3----3-|-------------------------------|
|------2----2---0--0----0-|------0----0-0-------0---------|
|-0-0-------------------2-|------0----0-0-----0---2p0-----|
|-------------3-----------|---------------0h2---------0h2-|
|-------------------------|-3-3-------3-3-----------------|

|-------------------|---------------------------|--------------------|
|-------------------|---------------------3-----|--------------------|
|-------------------|---------------------5-----|--------------------|
|-7-7-9-7-5-5-7-5-5-|---------------------5-----|-7-7-9-7-5-5-7-5-5--|
|-5-5-5-5-3-3-3-3-3-|-5-5-x-x-7-x---5---x-3-----|-5-5-5-5-3-3-3-3-3--|
|-------------------|-3-3-x-x-3-x---3---x-------|--------------------|
|
|-------------------|---------------------------|--------------------|
|-------------------|---------------------------|--------------------|
|-------------------|---------------------------|--------------------|
|---7-9-7---5-7-5-5-|---------------0-2p0-------|---7-9-7---5-7-5-5--|
|-5-5-5-5-3-3-3-3-3-|-5-5-x-5-7-0h2-------3b3.5-|-5-5-5-5-3-3-3-3-3--|
|-------------------|-3-3-x---3-----------------|--------------------|

|-----------------------------------|
|-----------------------------------|
|-----------------------------------|
|---------------------5-------5/----|
|-x---5---x-5-5-------3-------3/----|
|-x---3---x-3-3---------------------|
|
|-----------------------------------|
|-----------------------------------|
|-----0-----0-----0-----0-----0-----|
|-0h2---0h2---0h2---0h2---0h2-------|
|--------------------------------3/-|
|-----------------------------------|

|-------------------|------------------------|
|-------------------|---------------------3--|
|-------------------|---------------------5--|
|-7-7-9-7-5-5-7-5-5-|-------------------x-5--|
|-5-5-5-5-3-3-3-3-3-|-5-5-x-x-7-x---5---x-3--|
|-------------------|-3-3-x-x-3-x---3--------|
|
|-------------------|------------------------|
|-------------------|------------------------|
|-------------------|------------------------|
|---7-9-7---5-7-5-5-|-------0-------0-2p0----|
|-5-5-5-5-3-3-3-3-3-|-5-5-x---7-0h2-------3--|
|-------------------|-3-3-x---3--------------|

  Gtr III
                                                                ~
|-------------------|---------------------------------|---------------------|
|-------------------|-----8---10---8---8b10--8b10r(8)-|-7-------------------|
|-------------------|---9---9----9--------------------|---7-----7-----------|
|-------------------|---------------------------------|-----7-9-------------|
|-------------------|---------------------------------|---------------------|
|-------------------|---------------------------------|---------------------|
|
| Gtrs I, II
|-------------------|------------------1-----0--------|---------------------|
|-------------------|------------------1-----1--------|---------------------|
|-------------------|----------0---0-0-2-----0--------|---------------------|
|---7-9-7---5-7-5-5-|----------0---0-0-3-----2--------|-----7-9-7---5-7-5-5-|
|-5-5-5-5-3-3-3-3-3-|------------------3-----3--------|-5---5-5-5-3-3-3-3-3-|
|-------------------|-3---3--------3-3----------------|---------------------|

  Gtr II
|-----------------------|-------------------|
|---------------------3-|-------------------|
|---------------------5-|-------------------|
|---------------------5-|-7-7-9-7-5-5-7-5-5-|
|-5-5-x-x-7-x---5---x-3-|-5-5-5-5-3-3-3-3-3-|
|-3-3-x-x-3-x---3---x---|-------------------|
|
| Gtr I
|-----------------------|-------------------|
|-----------------------|-------------------|
|-----------------------|-------------------|
|---------------0-2p0---|---7-9-7---5-7-5-5-|
|-5-5-x-5-7-0h2-------3-|-5-5-5-5-3-3-3-3-3-|
|-3-3-x---3-------------|-------------------|

|------------------------------------|
|------------------------------------|
|------------------------------------|
|---------------------5-------5/-----|
|-x---5---x-5-5-------3-------3/-----|
|-x---3---x-3-3----------------------|
|
|------------------------------------|
|------------------------------------|
|-----0-----0-----0-----0-----0------|
|-0h2---0h2---0h2---0h2---0h2--------|
|--------------------------------3/--|
|------------------------------------|

|-------------------|---------------------------|--------------------|
|-------------------|---------------------3-----|--------------------|
|-------------------|---------------------5-----|--------------------|
|-7-7-9-7-5-5-7-5-5-|-------------------x-5-----|-7-7-9-7-5-5-7-5-5--|
|-5-5-5-5-3-3-3-3-3-|-5-5-x-x-7-x---5---x-3-----|-5-5-5-5-3-3-3-3-3--|
|-------------------|-3-3-x-x-3-x---3-----------|--------------------|
|
|-------------------|---------------------------|--------------------|
|-------------------|---------------------------|--------------------|
|-------------------|---------------------------|--------------------|
|---7-9-7---5-7-5-5-|-------0-------0-2p0-------|---7-9-7---5-7-5-5--|
|-5-5-5-5-3-3-3-3-3-|-5-5-x---7-0h2-------3b3.5-|-5-5-5-5-3-3-3-3-3--|
|-------------------|-3-3-x---3-----------------|--------------------|

  Gtrs I, II
|-------------------------|---------------------|-------------------|
|-------------------------|---------------------|-------------------|
|-------------------------|---------------------|-------------------|
|-----------------------0-|-7-7-9-7-7-5-5-7-5-5-|-------------------|
|-5-5-x-x-7-x-5-5-5-x-x---|-5-5-5-5-5-3-3-3-3-3-|-5-5-x-7-x-5-5-7-5-|
|-3-3-x-x-3-x-3-3-3-x-x---|---------------------|-3-3-x-3-x-3-3-3-3-|

|---------------------|-------------------|----------------------|
|---------------------|-------------------|----------------------|
|---------------------|-------------------|----------------------|
|-7-7-9-7-7-5-5-7-5-5-|-------------------|-7-7-9-7-7-5-5-7-5-5--|
|-5-5-5-5-5-3-3-3-3-3-|-5-5-x-7-x-5-5-7-5-|-5-5-5-5-5-3-3-3-3-3--|
|---------------------|-3-3-x-3-x-3-3-3-3-|----------------------|

|-------------------|---------------------|--------------------------|
|-------------------|---------------------|--------------------------|
|-------------------|---------------------|--------------------------|
|-------------------|-7-7-9-7-7-5-5-7-5-5-|-------------0h2-0--------|
|-5-5-x-7-x-5-5-7-5-|-5-5-5-5-5-3-3-3-3-3-|-5-5-7-7-0h2-------3b3.5--|
|-3-3-x-3-x-3-3-3-3-|---------------------|-3-3-3-3------------------|

|---------------------|-------------------------|---------------------|
|---------------------|-------------------------|---------------------|
|---------------------|-------------------------|---------------------|
|-7-7-9-7-7-5-5-7-5-5-|-------------0h2-0-------|-7-7-9-7-7-5-5-7-5-5-|
|-5-5-5-5-5-3-3-3-3-3-|-5-5-7-7-0h2-------3b3.5-|-5-5-5-5-5-3-3-3-3-3-|
|---------------------|-3-3-3-3-----------------|---------------------|

|-------------------------|---------------------|-------------------------*|
|-------------------------|---------------------|-------------------------*|
|-------------------------|---------------------|-------------------------*|
|-------------0h2-0-------|-7-7-9-7-7-5-5-7-5-5-|-------------0h2-0-------*|
|-5-5-7-7-0h2-------3b3.5-|-5-5-5-5-5-3-3-3-3-3-|-5-5-7-7-0h2-------3b3.5-*|
|-3-3-3-3-----------------|---------------------|-3-3-3-3-----------------*|

Tablature Legend
----------------
 h   - hammer-on
 p   - pull-off
 b   - bend
 pb  - pre-bend
 r   - bend release (if no number after the r, then release immediately)
 /\  - slide into or out of (from/to "nowhere")
 s   - legato slide
 S   - shift slide
<n> - natural harmonic
[n]  - artificial harmonic
n(n) - tapped harmonic
 ~   - vibrato
 tr  - trill
 T   - tap
 TP  - trem. picking
 PM  - palm muting
\n/  - tremolo bar dip; n = amount to dip
 \n  - tremolo bar down
 n/  - tremolo bar up
/n\  - tremolo bar inverted dip
 =   - hold bend; also acts as connecting device for hammers/pulls
 <> - volume swell (louder/softer)
 x   - on rhythm slash represents muted slash
 o   - on rhythm slash represents single note slash

Misc Legend
-----------
 |  - bar
||  - double bar
||o - repeat start
o|| - repeat end
*|  - double bar (ending)
 :  - bar (freetime)
 $  - Segno
 &  - Coda

If you have problems to see the whole Guitar Tabs For Sweet Home Alabama, right click and select view source

That was the guitar tabs for Sweet Home Alabama, here is the lyrics


Big wheels keep on turning
Carry me home to see my kin
Singing songs about the Southland
I miss Alabamy once again
And I think its a sin, yes

Well I heard mister Young sing about her
Well, I heard ole Neil put her down
Well, I hope Neil Young will remember
A Southern man don’t need him around anyhow

Sweet home Alabama
Where the skies are so blue
Sweet Home Alabama
Lord, I’m coming home to you

In Birmingham they love the governor
Now we all did what we could do
Now Watergate does not bother me
Does your conscience bother you?
Tell the truth

Sweet home Alabama
Where the skies are so blue
Sweet Home Alabama
Lord, I’m coming home to you
Here I come Alabama

Now Muscle Shoals has got the Swampers
And they’ve been known to pick a song or two
Lord they get me off so much
They pick me up when I’m feeling blue
Now how about you?

Sweet home Alabama
Where the skies are so blue
Sweet Home Alabama
Lord, I’m coming home to you

Sweet home Alabama
Oh sweet home baby
Where the skies are so blue
And the governor’s true
Sweet Home Alabama
Lordy
Lord, I’m coming home to you
Yea, yea Montgomery’s got the answer

Click Here to Leave a Comment Below 0 comments